Date: 31.10.2005
Tabbed by: Zairul.Com a.k.a Semb

Subject:
P.Ramlee - Dendang Perantau

Chords:

Bbm     688666
G#      466544
F#      244322
F       133211
Ebm     x68876

Daug    |-----|
        |-7---|
        |-7---|
        |-8---|
        |-9---|
        |-10--|

C#      x46664

Intro :

-|---------------------------------|----------6-----6-6---6-------6--|-
-|--6h7p6---6----------------------|----------6-----6-6---6-------6--|-
-|--------8-----6---8---5-------5--|----------6-----6-6---6-------6--|-
-|--------------------------6------|--8-------8-----8-8---8-------8--|-
-|---------------------------------|----------8-----8-8---8-------8--|-
-|---------------------------------|----------6-----6-6---6-------6--|-
    +       +       +       +         +       +       +       +

-|---------------------------------|----------6-----6-6---6-------5--|--6
-|--6h7p6---6----------------------|----------6-----6-6---6----------|---
-|--------8-----6---8---5-------5--|----------6-----6-6---6----------|---
-|--------------------------6------|--8-------8-----8-8---8----------|---
-|---------------------------------|----------8-----8-8---8----------|---
-|---------------------------------|----------6-----6-6---6----------|---
    +       +       +       +         +       +       +       +         +

   Bbm
Di hari raya

                   G#
Terkenang daku kepada si dia

                      F#
Kampungku indah nun jauh di sana

              F
Ayah serta bondaku

     Ebm        Daug
Di tepian mandi

                     C#         F#
Danauku hijau yang damai selalu

                       F
Nun di sanalah tempat aku bertemu

          Bbm
Aku dan dia

Chorus:

 F
Apakan daya Masa tak akan kembali

   F#       G# F#     F
Hancur musnahlah semuanya

    Ebm           Daug
Impian yang murni

                       C#         F#
Tinggal menjadi kenang-kenanganku

                     F
Hanya rangkaian kata dengan lagu

             Bbm
Dendang perantau

Interlude : Bbm G# F# F Ebm Daug C# F# F Bbm

Ulang Chorus

Outro :

-|---------------------------------|----------6-----6-6---6-------6--|-
-|--6h7p6---6----------------------|----------6-----6-6---6-------6--|-
-|--------8-----6---8---5-------5--|----------6-----6-6---6-------6--|-
-|--------------------------6------|--8-------8-----8-8---8-------8--|-
-|---------------------------------|----------8-----8-8---8-------8--|-
-|---------------------------------|----------6-----6-6---6-------6--|-
    +       +       +       +         +       +       +       +

-|---------------------------------|--6--|-
-|--6h7p6---6----------------------|--6--|-
-|--------8-----6---8---5-------5--|--6--|-
-|--------------------------6------|--8--|-
-|---------------------------------|--8--|-
-|---------------------------------|--6--|-
    +       +       +       +         +

* NOTE : Untuk beginners, lebih senang kalau letak capo pada 1st fret,
         dan main half-tune-down,
               Iaitu :  Bbm  --->  Am
                        G#   --->  G
                        F#   --->  F
                        F    --->  E
                        Ebm  --->  Dm
                        Daug --->  C#aug
                        C#   --->  C

Kod Gitar Dendang Perantau – P.Ramlee
Tagged on:                         

7 thoughts on “Kod Gitar Dendang Perantau – P.Ramlee

  • September 3, 2010 at 9:57 pm
    Permalink

    yg tanda ‘+’ kat bawah tab tu apa maksud dia?

    Reply
    • September 3, 2010 at 10:32 pm
      Permalink

      @uzair : itu utk rujukan timing beat dalam satu measure. jarak antara dua bar (simbol “|” tu) dipanggil satu measure. dalam satu measure untuk lagu ni ada empat beat. timing untuk beat tu aku tunjukkan dengan simbol “+” kat bawah tu.

      Reply
  • September 7, 2010 at 11:52 pm
    Permalink

    zairul…mne kau dpt sumer chord lgu2 melayu nie?aku mmg susah nk cri chord2 lgu melayu..tq

    Reply
  • November 21, 2010 at 6:48 pm
    Permalink

    aq ni bru lg ,, ape mksud nmbor2 mse intro ngn outro ??

    Reply
  • November 24, 2010 at 2:20 pm
    Permalink

    aq tak paham la bro . 🙂
    ajar skit

    Reply

Leave a Reply

%d bloggers like this: