Date: 09.02.2006
Tabbed by: Zairul.Com a.k.a Semb

P.Ramlee - Sedangkan Lidah Lagi Tergigit

Intro :

                     C/G
-|-----0-----------|-----------------|-
-|---------3-1---- |-1---------------|-
-|-------------2-0-|-----------------|-
-|-----------------|-----------------|-
-|-----------------|-----------------|-
-|-----------------|-----------------|-
   +   +   +   +     +   +   +   +

            C             Dm
Sedangkan lidah lagi tergigit
      G            C
Apa pula suami isteri
             C                 F
Buang yang keruh ambil yang jernih
  G    C     G   C
Baru teguh peribadi


                     Dm
-|-----1---0-------|-----------------|-
-|-----------3-1---|-3---------------|-
-|---------------2-|-----------------|-
-|-----------------|-----------------|-
-|-----------------|-----------------|-
-|-----------------|-----------------|-
   +   +   +   +     +   +   +   +

   G                 C
-|-----0-----------|-----------------|-
-|---------3-1---- |-1---------------|-
-|-------------2-0-|-----------------|-
-|-----------------|-----------------|-
-|-----------------|-----------------|-
-|-----------------|-----------------|-
   +   +   +   +     +   +   +   +


      C              Em
Apa guna kita bertengkar
   F               Bb   C
Suami isteri harus bersabar
  F     C               Bb
Kasih sayang rukun dan damai
           C        Bb   G
Hidup seperti dalam mahligai
        C    G      C
Maaf hamba wahai dinda

             C                 F
Buang yang keruh ambil yang jernih
  G    C     G   C
Baru teguh peribadi


Suami isteri mesti berpakat
Rumah tangga mendapat berkat

Apa guna selisih faham
Kalau kini aman tenteram
Pohon ampun wahai kanda

Buang yang keruh ambil yang jernih
Baru teguh peribadi
Kod Gitar Sedangkan Lidah Lagi Tergigit – P.Ramlee dan Sarimah
Tagged on:                     

Leave a Reply

%d bloggers like this: