Date: 18.10.2006
Tabbed by: Zairul.Com a.k.a Semb

Subject:
Rahimah Rahim - Selamat Berhari Raya


Chords guide:

    A  Bb  C  Dm  D7onF#  Eb  F  Gm

e|--0--1---0--1---2-------3---1--3-------------------------------------------|
B|--2--3---1--3---1-------4---1--3-------------------------------------------|
G|--2--3---0--2---2-------3---2--3-------------------------------------------|
D|--2--3---2--0---0-------5---3--5-------------------------------------------|
A|--0--1---3------x-----------3--5-------------------------------------------|
E|----------------2-----------1--3-------------------------------------------|

Intro :

Dm C Bb A Gm C Dm A

Dm      A         Dm   Gm         C       F  D7onF#
Selamat berhari raya, Ucapan ku untuk semua

  Gm      C          F     Bb          Eb           A
Kita mengeratkan semula, Hubungan saudara yang terpisah

Dm        A          Dm        Gm       C            F     D7onF#
Yang jauh berkirim salam, Yang dekat berkunjung-kunjungan

  Gm      C          F     Bb      Eb       A        Dm (Riff 1)
Maaf dipinta dan diberi, Semoga ikatan berkekalan abadi

[Chorus]

C                  F  Gm                     A (Riff 2)
Dalam kita bergembira,   Pasti ada yang berduka

C                F  Gm                     A
Enak menjamu selera,   Jangan lupa yang tiada

Dm      A         Dm    Gm       C          F   D7onF#
Selamat berhari raya, Walau di mana kau berada

  Gm      C           F    Bb         Eb      A           Dm
Suka-duka silih berganti, Apa pun dugaan tabahlah menghadapi

(Reprise from Intro)

[Outro]
Dm C Bb A Gm C Dm

[Riff 1]                    [Riff 2]
     Dm Dm C# C                  A  Dm C# C
-|---5--5--4--3-------      -|---5--5--4--3-------
-|---6--6--6--5-------      -|---5--6--6--5-------
-|---7--7--6--5-------      -|---6--7--6--5-------
-|---7--7--6--5-------      -|---7--7--6--5-------
-|---5--5--4--3-------      -|---7--5--4--3-------
-|--------------------      -|---5----------------
Kod Gitar Selamat Berhari Raya – Rahimah Rahim
Tagged on:                 

Leave a Reply

%d bloggers like this: