Date: 18.03.2007
Tabbed by: Zairul.Com a.k.a Semb

Subject:

SUDIRMAN - Milik Siapakah Gadis Ini


Chords guide :

    C      Dm     F      Gm     A      Am     Bb
e|--0------1------1------3------0------0------1-----|
B|--1------3------1------3------2------1------3-----|
G|--0------2------2------3------2------2------3-----|
D|--2------0------3------5------2------2------3-----|
A|--3------x------3------5------0------0------1-----|
E|--x------x------1------3------x------x------x-----|


[Intro]
                 Dm                                  C
   *   *   *   *     *   *   *   *     *   *   *   *     *   *   *   *
e|-----------------|-----------------|-----------------|-----------------|
B|-----------------|-----------------|-----------------|-----------------|
G|---------2-------|-----------------|---------2-------|-----------------|
D|-----2-3---3-2-0-|-----------------|-----2-3---3-2---|-----------------|
A|-----------------|-----------------|---------------3-|-----------------|
E|-----------------|-----------------|-----------------|-----------------|

                     F     C     Dm/G                    Dm
   *   *   *   *     *   *   *   *     *   *   *   *     *   *   *   *
e|-----------------|-----------------|-----------------|-----------------|
B|-----------------|-----------------|-----------------|-----------------|
G|-----------------|-----2-----------|-----------------|-----------------|
D|-------------0-2-|-3-----2---3-0---|-------------3-2-|-0---------------|
A|-----------------|-----------------|-----------------|-----------------|
E|-----------------|-----------------|-----------------|-----------------|

                 Dm                                  C
   *   *   *   *     *   *   *   *     *   *   *   *     *   *   *   *
e|-----------------|-----------------|-----------------|-----------------|
B|-----------------|-----------------|-----------------|-----------------|
G|---------2-------|-----------------|---------2-------|-----------------|
D|-----2-3---3-2-0-|-----------------|-----2-3---3-2---|-----------------|
A|-----------------|-----------------|---------------3-|-----------------|
E|-----------------|-----------------|-----------------|-----------------|

                     F     C     Dm/G                    Dm
   *   *   *   *     *   *   *   *     *   *   *   *     *   *   *   *
e|-----------------|-----------------|-----------------|-----------------|
B|-----------------|-----------------|-----------------|-----------------|
G|-----------------|-----0-----------|-----------------|-----------------|
D|-------------0-2-|-3-----2---3-0---|-------------3-2-|-0---------------|
A|-----------------|-----------------|-----------------|-----------------|
E|-----------------|-----------------|-----------------|-----------------|


   *   *   *   *     *   *   *   *     *   *   *   *     *   *   *   *
e|-----------------|-----------------|-----------------|-----------------|
B|-----------------|-----------------|-----------------|-----------------|
G|-----------------|-----------------|-----------------|-----------------|
D|-----------------|-----------------|-----------------|-----------------|
A|-----------------|-----------------|-----------------|-----------------|
E|-----------------|-----------------|-----------------|-----------------|


[Verse 1]
  Dm       C          Dm     Gm           C        Dm
Milik siapakah gadis ini   Wajah lembut bagaikan sutera

 Gm              A        Bb         Gm     F      C    Dm
Ingin hatinya ku miliki  Apakan terdaya  Adakahkan terdaya


[Verse 2]
  Dm       C         Dm         Gm         C      Dm
Milik siapakah hati ini   Bagai berkurun lama kesepian

 Gm               A            Bb          Gm     F    C   Dm
Ingin aku mencurahkan kasih  Kepada yang sudi  Adakah ia sudi


[Chorus]

F             C        Dm      Am
Lama telah ku impikan  Gadis sepertinya

  Bb            C     Bb            A     Dm
Mengisi taman hati  Dengan cahaya kasih suci

Bb            C      Bb      C
Lama telah ku impikan  Gadis sepertinya

  Gm            C     Bb          A
Mengisi taman hati  Dengan cahaya kasih

  Dm       C           Dm
Siapakah gadis yang ku idam...


[Gitar Solo] G5 X4

Ulang [Verse 2], [Chorus]
Tagged on:                         

2 thoughts on “Kod Gitar Milik Siapakah Gadis Ini – Sudirman

  • May 31, 2010 at 9:03 pm
    Permalink

    gadis indonesia harus bisa menjadi figure yang baik untuk dunia, nice article :)

    Reply
  • December 13, 2010 at 10:48 am
    Permalink

    mntk tolong..dari dlu sy nk tau..
    bagaimana nk main chord guide atas tu ekk..
    dr dlu sy x phm2…plzzz

    Reply

Leave a Reply

%d bloggers like this: