Tab gitar Mia Sara – ost Papadom

Requested by Azrul and 5 more people so far.. nah amik ni aku tabkan ost papadom, mia sara nyanyian? gubahan? lirikan? oleh Bro Afdlin Shauki yang serba macho. Untuk menyenangkan korang, aku buat dua version, satu tablature dan satu chord ver.

Untuk main lagu ni sama dengan original tune, sila tune gitar anda “whole-step-down” atau dipanggil D tuning. Maknanya instead of menuning gitar anda secara standard dengan note EADGBE, turunkan bunyinye 2 fret supaya menjadi DGCFAD. Kalau tengok kod tu pulak, itu adalah nama kod setelah tune down gitar. Setelah gitar anda di tune down, main dengan fingering kod itu. Sebagai contoh, aku tulis “Asus4” sebab fingering adalah Asus4 sedangkan kod sebenar kalau nak main dengan piano (tanpa tune down gitar) adalah Gsus4.. Paham tak? Berbelit ayat aku ni.

mp3, video dan tab serta kod gitar ada dibawah;

 

 

Date: 23.12.2009
Tabbed by: Zairul.Com a.k.a Semb

Subject:
MIA SARA (OST PAPADOM) - AFDLIN SHAUKI

===============================================================
                            VERSI TAB
===============================================================
[Intro]

   Asus2            F#m11            Bbm7             Esus4  E
D|----------------|-----------0-x--|-----------2-x--|-----------0-x--|
A|---0-x-----0-x--|---0-x-0---0-x--|---3-x-3---3-x--|-----------0-x--|
F|---2-x-----2-x--|---2-x-2-----x--|---2-x-2-----x--|---2-x-1-----x--|
C|----------------|----------------|----------------|---2-x-2-----x--|
G|-0---x-0-----x--|----------------|-2---x-2-----x--|----------------|
D|----------------|-2---x-2-----x--|----------------|-0---x-0-----x--|
   +   +   +   +    +   +   +   +    +   +   +   +    +   +   +   +   


   Asus2            F#m11            Bbm7             Esus4    E
D|----------------|-----------0-x--|-----------2-x--|----------------|
A|---0-x-0---0-x--|---0-x-0---0-x--|---3-x-3---3-x--|-------0--------|
F|---2-x-2---2-x--|---2-x-2-----x--|---2-x-2-----x--|-----2---1------|
C|----------------|----------------|----------------|---2------------|
G|-0---x-0-----x--|----------------|-2---x-2-----x--|----------------|
D|----------------|-2---x-2-----x--|----------------|-0--------------|
   +   +   +   +    +   +   +   +    +   +   +   +    +   +   +   +   

                                                                Mia sa-
[Verse 1]

   Asus2            F#m11            Bbm7             Esus4  E
D|----------------|-----------0-x--|-----------2-x--|-----------0-x--|
A|---0-x-0---0-x--|---0-x-0---0-x--|---3-x-3---3-x--|-----------0-x--|
F|---2-x-2---2-x--|---2-x-2-----x--|---2-x-2-----x--|---2-x-1-----x--|
C|----------------|----------------|----------------|---2-x-2-----x--|
G|-0---x-0-----x--|----------------|-2---x-2-----x--|----------------|
D|----------------|-2---x-2-----x--|----------------|-0---x-0-----x--|
   +   +   +   +    +   +   +   +    +   +   +   +    +   +   +   +   

   ra..       ..pa- gi..     ..sina- ri      ..hidup  ini..         ba-

   pa..       ..ma- mi..    ..sebut  di..       ..ka- mi       satu ha-

   ri..      ..per- gi..       ..ka- mi..    ..sendi- ri       walau a-

   pa..       ..ja- di..    ..tetap  akan       kami  cintai..


   Asus2            Asus2
D|-----------0-x--|-----------0-x--|
A|---0-x-0---0-x--|---0-x-0---0-x--|
F|---2-x-2-----x--|---2-x-2-----x--|
C|----------------|----------------|
G|-0---x-0-----x--|-0---x-0-----x--|
D|----------------|----------------|
   +   +   +   +    +   +   +   +   

                               oh mia sara..

[Chorus]
     
   F#m9  F#m        Bbm7             Esus4  E          Asus2  
D|-4-2-x-----2-x--|-----------2-x--|-----------0-x--|-----------0-x--|
A|-2-2-x-2---2-x--|---3-x-3---3-x--|-----------0-x--|---0-x-0---0-x--|
F|-------2-----x--|---2-x-2-----x--|---2-x-1-----x--|---2-x-2-----x--|
C|----------------|----------------|---2-x-2-----x--|----------------|
G|----------------|-2---x-2-----x--|----------------|-0---x-0-----x--|
D|-2---x-2-----x--|----------------|-0---x-0-----x--|----------------|
   +   +   +   +    +   +   +   +    +   +   +   +    +   +   +   +   

               tidur- lah..     kami kan   bersama mu           dibuai

   mimpi     nan    indah..     doa  papa..   ..mama  mu      tidurlah


   Bbm7             Esus4  E          Bbm7             Esus4  E   
D|-----------2-x--|-----------0-x--|-----------2-x--|-----------0-x--
A|---3-x-3---3-x--|-----------0-x--|---3-x-3---3-x--|-----------0-x--|
F|---2-x-2-----x--|---2-x-1-----x--|---2-x-2-----x--|---2-x-1-----x--|
C|----------------|---2-x-2-----x--|----------------|---2-x-2-----x--|
G|-2---x-2-----x--|----------------|-2---x-2-----x--|----------------|
D|----------------|-0---x-0-----x--|----------------|-0---x-0-----x--|
   +   +   +   +    +   +   +   +    +   +   +   + 

               mia  sara       tidur lah         mia  sara    tidurlah


   Asus2            Asus2
D|-----------0-x--|-----------0-x--|
A|---0-x-0---0-x--|---0-x-0---0-x--|
F|---2-x-2-----x--|---2-x-2-----x--|
C|----------------|----------------|
G|-0---x-0-----x--|-0---x-0-----x--|
D|----------------|----------------|
   +   +   +   +    +   +   +   +   


[Verse 2]    * main tab seperti [Verse 1]
Miasara yang pertama anugerah terutama
Senyuman mu belai jiwa pengubat hati yang lara
Tuhan lindungi permata selamatkan sentiasa
Dari duka di dunia akan kita hadapi bersama


[Bridge]

   Asus2            F#m11            Bbm7             E
D|----------------|----------------|----------------|----------------|
A|---0-x-----0-x--|---0-x-----0-x--|---3-x-----3-x--|----------------|
F|---2-x-----2-x--|---2-x-----2-x--|---2-x-----2-x--|---1-x-----1-x--|
C|----------------|----------------|----------------|---2-x-----2-x--|
G|-0---x-0-----x--|----------------|-2---x-2-----x--|----------------|
D|----------------|-2---x-2-----x--|----------------|-0---x-0-----x--|
   +   +   +   +    +   +   +   +    +   +   +   +    +   +   +   +   

..rambutmu    mata  mu       bibir   mu         hati  mu        senyum
   mu         tawa  mu      di hati  ku         sela- lu 


Ulang [Chorus]

Oh Miasara tidur lah kasihani mama mu
Kerana dia menunggu untuk bersama bapa mu
Tidurlah Miasara tidurlah Miasara tidurlah


[Outro]
Tidurlah Miasara tidurlah Miasara tidurlah Miasara
ohh.. tidurlah

   A     Asus4   A   A     Asus4   A   A     Asus4   A   A     Asus4   A  
D|-----------------|-----------------|-----------------|-----------------|
A|---2-x-3---3-x-2-|---2-x-3---3-x-2-|---2-x-3---3-x-2-|---2-x-3---3-x-2-|
F|---2-x-2---2-x-2-|---2-x-2---2-x-2-|---2-x-2---2-x-2-|---2-x-2---2-x-2-|
C|-----------------|-----------------|-----------------|-----------------|
G|-0---x-0-----x---|-0---x-0-----x---|-0---x-0-----x---|-0---x-0-----x---|
D|-----------------|-----------------|-----------------|-----------------|
   +   +   +   +    +   +   +   +     +   +   +   +     +   +   +   +     

   A
D|-----------------|
A|-2---------------|
F|-2---------------|
C|-2---------------|
G|-0---------------|
D|-----------------|
   +   +   +   +  
===============================================================
===============================================================




===============================================================
                            VERSI KOD
===============================================================

[Intro]

Asus2   F#m11   Bbm7   Esus4 E    x2


[Verse 1]

     Asus2       F#m11      Bbm7     Esus4 E  
Miasara  waktu pagi kau sinari hidup ini

         Asus2       F#m11        Bbm7         Esus4 E 
Bangun bapa bangun mami kau sebut di telinga kami 

       Asus2         F#m11        Bbm7       Esus4 E
Satu hari kau kan pergi tinggal kami bersendiri 

       Asus2       F#m11        Bbm7      E    A
Walau apa kan terjadi kau tetap akan kami cintai 



[Chorus 1]

      F#m    Bbm7        E           A 
Oh Miasara tidur lah kamikan bersama mu

       F#m       Bbm7          E             A 
Dibuai mimpi nan indah dan doa papa dan mama mu 

      Bbm7   E          Bbm7   E          A
Tidur lah Miasara tidur lah Miasara tidur lah 



[Verse 2]

     Asus2        F#m11   Bbm7      E  
Miasara yang pertama anugerah terutama

         Asus2      F#m11       Bbm7        E 
Senyuman mu belai jiwa pengubat hati yang lara

         Asus2      F#m11     Bbm7     E
Tuhan lindungi permata selamatkan sentiasa

       Asus2     F#m11    Bbm7      E    A
Dari duka di dunia akan kita hadapi bersama



[Bridge]

       A       F#m11    Bbm7    E
Rambut mu mata mu bibir mu hati mu

       A       F#m11     Bbm7   E
Senyum mu tawa mu di hatiku selalu


[Chorus 2]

      F#m    Bbm7        E         A 
Oh Miasara tidur lah kasihani mama mu

       F#m       Bbm7        E         A 
Kerana dia menunggu untuk bersama bapa mu 

     Bbm7   E         Bbm7   E          A
Tidurlah Miasara tidurlah Miasara tidurlah


[Outro] 

     Bbm7   E         Bbm7   E         Bbm7   E
Tidurlah Miasara tidurlah Miasara tidurlah Miasara

           A   Asus4   A Asus4   A
ohh.. tidurlah

===============================================================
===============================================================

Author: Zairul

I'm a mechanical designer, working in an engineering company in Japan for 7 years, currently working in Indonesia, a husband and a father, I love guitar, music, android and internet in general.

8 thoughts on “Tab gitar Mia Sara – ost Papadom”

  1. bro nk tanya skit…kalau kita ubah2 tuning gitar ni…bukan menyebabkan tali dia cepat longgar ke?
    kejap drop c,kejap drop d,kang nak ubah standard tuning balik da tak sama bunyi?

    1. @rjsyazwan – selalu tukar tuning gitar bukan penyebab gitar senang out of tune. tali baru memang akan senang lari tuning sebab tak strecth betul lagi.

Leave a Reply